ISO-10303-21;
HEADER;
FILE_DESCRIPTION (( 'STEP AP203' ),
    '1' );
FILE_NAME ('BK7-LNPBSP-50.8-780.STEP',
    '2020-12-22T04:13:10',
    ( '' ),
    ( '' ),
    'SwSTEP 2.0',
    'SolidWorks 2020',
    '' );
FILE_SCHEMA (( 'CONFIG_CONTROL_DESIGN' ));
ENDSEC;

DATA;
#1 = CC_DESIGN_DATE_AND_TIME_ASSIGNMENT ( #93, #155, ( #113 ) ) ;
#2 = VECTOR ( 'NONE', #74, 1000.000000000000000 ) ;
#3 = DIRECTION ( 'NONE',  ( 1.000000000000000000, 0.000000000000000000, 0.000000000000000000 ) ) ;
#4 = APPLICATION_PROTOCOL_DEFINITION ( 'international standard', 'config_control_design', 1994, #160 ) ;
#5 = DIRECTION ( 'NONE',  ( -0.000000000000000000, 0.000000000000000000, 1.000000000000000000 ) ) ;
#6 = AXIS2_PLACEMENT_3D ( 'NONE', #32, #73, #109 ) ;
#7 = FACE_OUTER_BOUND ( 'NONE', #71, .T. ) ;
#8 = DATE_AND_TIME ( #28, #102 ) ;
#9 = EDGE_CURVE ( 'NONE', #124, #44, #38, .T. ) ;
#10 = PERSON_AND_ORGANIZATION_ROLE ( 'creator' ) ;
#11 = CALENDAR_DATE ( 2020, 22, 12 ) ;
#12 = ORIENTED_EDGE ( 'NONE', *, *, #49, .T. ) ;
#13 = PERSON_AND_ORGANIZATION ( #120, #56 ) ;
#14 = ADVANCED_BREP_SHAPE_REPRESENTATION ( 'BK7-LNPBSP-50.8-780', ( #83, #96 ), #46 ) ;
#15 = CC_DESIGN_PERSON_AND_ORGANIZATION_ASSIGNMENT ( #100, #167, ( #164 ) ) ;
#16 = AXIS2_PLACEMENT_3D ( 'NONE', #103, #132, #20 ) ;
#17 = APPROVAL_PERSON_ORGANIZATION ( #115, #26, #50 ) ;
#18 = CARTESIAN_POINT ( 'NONE',  ( 0.000000000000000000, 0.000000000000000000, 0.000000000000000000 ) ) ;
#19 = PLANE ( 'NONE',  #34 ) ;
#20 = DIRECTION ( 'NONE',  ( 0.000000000000000000, 0.000000000000000000, 1.000000000000000000 ) ) ;
#21 = DIRECTION ( 'NONE',  ( 0.000000000000000000, 0.000000000000000000, 1.000000000000000000 ) ) ;
#22 = CC_DESIGN_PERSON_AND_ORGANIZATION_ASSIGNMENT ( #81, #156, ( #113 ) ) ;
#23 = PRODUCT_DEFINITION_FORMATION_WITH_SPECIFIED_SOURCE ( 'ANY', '', #164, .NOT_KNOWN. ) ;
#24 = CYLINDRICAL_SURFACE ( 'NONE', #97, 25.39999999999999858 ) ;
#25 = PERSON_AND_ORGANIZATION ( #120, #56 ) ;
#26 = APPROVAL ( #117, 'UNSPECIFIED' ) ;
#27 = ORIENTED_EDGE ( 'NONE', *, *, #9, .T. ) ;
#28 = CALENDAR_DATE ( 2020, 22, 12 ) ;
#29 = ORIENTED_EDGE ( 'NONE', *, *, #49, .F. ) ;
#30 = ORIENTED_EDGE ( 'NONE', *, *, #98, .F. ) ;
#31 = CIRCLE ( 'NONE', #6, 25.39999999999999858 ) ;
#32 = CARTESIAN_POINT ( 'NONE',  ( 2.999999999999996891, 0.000000000000000000, 0.000000000000000000 ) ) ;
#33 = CC_DESIGN_APPROVAL ( #26, ( #133 ) ) ;
#34 = AXIS2_PLACEMENT_3D ( 'NONE', #62, #152, #5 ) ;
#35 = CC_DESIGN_APPROVAL ( #87, ( #113 ) ) ;
#36 = CYLINDRICAL_SURFACE ( 'NONE', #54, 25.39999999999999858 ) ;
#37 = CARTESIAN_POINT ( 'NONE',  ( 0.000000000000000000, 0.000000000000000000, 25.39999999999999858 ) ) ;
#38 = CIRCLE ( 'NONE', #166, 25.39999999999999858 ) ;
#39 = PERSON_AND_ORGANIZATION ( #120, #56 ) ;
#40 = ORIENTED_EDGE ( 'NONE', *, *, #161, .F. ) ;
#41 = PERSON_AND_ORGANIZATION_ROLE ( 'creator' ) ;
#42 = DIRECTION ( 'NONE',  ( 0.000000000000000000, 0.000000000000000000, 1.000000000000000000 ) ) ;
#43 = ADVANCED_FACE ( 'NONE', ( #148 ), #24, .T. ) ;
#44 = VERTEX_POINT ( 'NONE', #171 ) ;
#45 = CLOSED_SHELL ( 'NONE', ( #43, #105, #125, #175 ) ) ;
#46 =( GEOMETRIC_REPRESENTATION_CONTEXT ( 3 ) GLOBAL_UNCERTAINTY_ASSIGNED_CONTEXT ( ( #52 ) ) GLOBAL_UNIT_ASSIGNED_CONTEXT ( ( #130, #77, #64 ) ) REPRESENTATION_CONTEXT ( 'NONE', 'WORKASPACE' ) );
#47 = CALENDAR_DATE ( 2020, 22, 12 ) ;
#48 = APPLICATION_PROTOCOL_DEFINITION ( 'international standard', 'config_control_design', 1994, #106 ) ;
#49 = EDGE_CURVE ( 'NONE', #44, #124, #31, .T. ) ;
#50 = APPROVAL_ROLE ( '' ) ;
#51 = CARTESIAN_POINT ( 'NONE',  ( 0.000000000000000000, 0.000000000000000000, 0.000000000000000000 ) ) ;
#52 = UNCERTAINTY_MEASURE_WITH_UNIT (LENGTH_MEASURE( 1.000000000000000082E-05 ), #130, 'distance_accuracy_value', 'NONE');
#53 = COORDINATED_UNIVERSAL_TIME_OFFSET ( 8, 0, .AHEAD. ) ;
#54 = AXIS2_PLACEMENT_3D ( 'NONE', #51, #75, #143 ) ;
#55 = COORDINATED_UNIVERSAL_TIME_OFFSET ( 8, 0, .AHEAD. ) ;
#56 = ORGANIZATION ( 'UNSPECIFIED', 'UNSPECIFIED', '' ) ;
#57 = ORIENTED_EDGE ( 'NONE', *, *, #9, .F. ) ;
#58 = CIRCLE ( 'NONE', #78, 25.39999999999999858 ) ;
#59 = ORIENTED_EDGE ( 'NONE', *, *, #67, .F. ) ;
#60 = VERTEX_POINT ( 'NONE', #157 ) ;
#61 = LOCAL_TIME ( 12, 13, 10.00000000000000000, #55 ) ;
#62 = CARTESIAN_POINT ( 'NONE',  ( 2.999999999999998224, 25.39999999999999858, 0.000000000000000000 ) ) ;
#63 = PLANE ( 'NONE',  #146 ) ;
#64 =( NAMED_UNIT ( * ) SI_UNIT ( $, .STERADIAN. ) SOLID_ANGLE_UNIT ( ) );
#65 = SECURITY_CLASSIFICATION_LEVEL ( 'unclassified' ) ;
#66 = APPROVAL_ROLE ( '' ) ;
#67 = EDGE_CURVE ( 'NONE', #44, #138, #85, .T. ) ;
#68 = EDGE_LOOP ( 'NONE', ( #172, #82 ) ) ;
#69 = APPROVAL_STATUS ( 'not_yet_approved' ) ;
#70 = APPROVAL_PERSON_ORGANIZATION ( #72, #136, #137 ) ;
#71 = EDGE_LOOP ( 'NONE', ( #57, #29 ) ) ;
#72 = PERSON_AND_ORGANIZATION ( #120, #56 ) ;
#73 = DIRECTION ( 'NONE',  ( -1.000000000000000000, -0.000000000000000000, -0.000000000000000000 ) ) ;
#74 = DIRECTION ( 'NONE',  ( -1.000000000000000000, -0.000000000000000000, -0.000000000000000000 ) ) ;
#75 = DIRECTION ( 'NONE',  ( -1.000000000000000000, -0.000000000000000000, -0.000000000000000000 ) ) ;
#76 = DIRECTION ( 'NONE',  ( -1.000000000000000000, -0.000000000000000000, -0.000000000000000000 ) ) ;
#77 =( NAMED_UNIT ( * ) PLANE_ANGLE_UNIT ( ) SI_UNIT ( $, .RADIAN. ) );
#78 = AXIS2_PLACEMENT_3D ( 'NONE', #145, #76, #21 ) ;
#79 = COORDINATED_UNIVERSAL_TIME_OFFSET ( 8, 0, .AHEAD. ) ;
#80 = CC_DESIGN_DATE_AND_TIME_ASSIGNMENT ( #8, #119, ( #133 ) ) ;
#81 = PERSON_AND_ORGANIZATION ( #120, #56 ) ;
#82 = ORIENTED_EDGE ( 'NONE', *, *, #161, .T. ) ;
#83 = MANIFOLD_SOLID_BREP ( 'Ðý×', #45 ) ;
#84 = CARTESIAN_POINT ( 'NONE',  ( 2.999999999999996891, 0.000000000000000000, 0.000000000000000000 ) ) ;
#85 = LINE ( 'NONE', #114, #2 ) ;
#86 = LOCAL_TIME ( 12, 13, 10.00000000000000000, #79 ) ;
#87 = APPROVAL ( #69, 'UNSPECIFIED' ) ;
#88 = MECHANICAL_CONTEXT ( 'NONE', #106, 'mechanical' ) ;
#89 = FACE_OUTER_BOUND ( 'NONE', #68, .T. ) ;
#90 = DIRECTION ( 'NONE',  ( -1.000000000000000000, -0.000000000000000000, -0.000000000000000000 ) ) ;
#91 = LOCAL_TIME ( 12, 13, 10.00000000000000000, #53 ) ;
#92 = LINE ( 'NONE', #37, #134 ) ;
#93 = DATE_AND_TIME ( #169, #91 ) ;
#94 = ORIENTED_EDGE ( 'NONE', *, *, #127, .F. ) ;
#95 = DATE_AND_TIME ( #153, #61 ) ;
#96 = AXIS2_PLACEMENT_3D ( 'NONE', #18, #168, #3 ) ;
#97 = AXIS2_PLACEMENT_3D ( 'NONE', #112, #158, #42 ) ;
#98 = EDGE_CURVE ( 'NONE', #60, #138, #129, .T. ) ;
#99 = CC_DESIGN_SECURITY_CLASSIFICATION ( #113, ( #23 ) ) ;
#100 = PERSON_AND_ORGANIZATION ( #120, #56 ) ;
#101 = APPROVAL_DATE_TIME ( #163, #26 ) ;
#102 = LOCAL_TIME ( 12, 13, 10.00000000000000000, #110 ) ;
#103 = CARTESIAN_POINT ( 'NONE',  ( -2.743208830090071026E-15, 0.000000000000000000, 0.000000000000000000 ) ) ;
#104 = CARTESIAN_POINT ( 'NONE',  ( 2.999999999999996891, 0.000000000000000000, 25.39999999999999858 ) ) ;
#105 = ADVANCED_FACE ( 'NONE', ( #135 ), #36, .T. ) ;
#106 = APPLICATION_CONTEXT ( 'configuration controlled 3d designs of mechanical parts and assemblies' ) ;
#107 = CC_DESIGN_PERSON_AND_ORGANIZATION_ASSIGNMENT ( #39, #108, ( #23 ) ) ;
#108 = PERSON_AND_ORGANIZATION_ROLE ( 'design_supplier' ) ;
#109 = DIRECTION ( 'NONE',  ( 0.000000000000000000, 0.000000000000000000, 1.000000000000000000 ) ) ;
#110 = COORDINATED_UNIVERSAL_TIME_OFFSET ( 8, 0, .AHEAD. ) ;
#111 = DIRECTION ( 'NONE',  ( 0.000000000000000000, 0.000000000000000000, 1.000000000000000000 ) ) ;
#112 = CARTESIAN_POINT ( 'NONE',  ( 0.000000000000000000, 0.000000000000000000, 0.000000000000000000 ) ) ;
#113 = SECURITY_CLASSIFICATION ( '', '', #65 ) ;
#114 = CARTESIAN_POINT ( 'NONE',  ( 0.000000000000000000, 3.110602869834276865E-15, -25.39999999999999858 ) ) ;
#115 = PERSON_AND_ORGANIZATION ( #120, #56 ) ;
#116 = CARTESIAN_POINT ( 'NONE',  ( -1.371604415045035513E-15, 25.39999999999999858, 0.000000000000000000 ) ) ;
#117 = APPROVAL_STATUS ( 'not_yet_approved' ) ;
#118 = PERSON_AND_ORGANIZATION ( #120, #56 ) ;
#119 = DATE_TIME_ROLE ( 'creation_date' ) ;
#120 = PERSON ( 'UNSPECIFIED', 'UNSPECIFIED', 'UNSPECIFIED', ('UNSPECIFIED'), ('UNSPECIFIED'), ('UNSPECIFIED') ) ;
#121 = DIRECTION ( 'NONE',  ( -1.000000000000000000, -0.000000000000000000, -0.000000000000000000 ) ) ;
#122 = SHAPE_DEFINITION_REPRESENTATION ( #144, #14 ) ;
#123 = APPROVAL_DATE_TIME ( #147, #136 ) ;
#124 = VERTEX_POINT ( 'NONE', #104 ) ;
#125 = ADVANCED_FACE ( 'NONE', ( #7 ), #19, .F. ) ;
#126 = DESIGN_CONTEXT ( 'detailed design', #160, 'design' ) ;
#127 = EDGE_CURVE ( 'NONE', #124, #60, #92, .T. ) ;
#128 = DIRECTION ( 'NONE',  ( 0.000000000000000000, 0.000000000000000000, -1.000000000000000000 ) ) ;
#129 = CIRCLE ( 'NONE', #16, 25.39999999999999858 ) ;
#130 =( LENGTH_UNIT ( ) NAMED_UNIT ( * ) SI_UNIT ( .MILLI., .METRE. ) );
#131 = APPROVAL_PERSON_ORGANIZATION ( #118, #87, #66 ) ;
#132 = DIRECTION ( 'NONE',  ( -1.000000000000000000, -0.000000000000000000, -0.000000000000000000 ) ) ;
#133 = PRODUCT_DEFINITION ( 'UNKNOWN', '', #23, #126 ) ;
#134 = VECTOR ( 'NONE', #90, 1000.000000000000000 ) ;
#135 = FACE_OUTER_BOUND ( 'NONE', #154, .T. ) ;
#136 = APPROVAL ( #149, 'UNSPECIFIED' ) ;
#137 = APPROVAL_ROLE ( '' ) ;
#138 = VERTEX_POINT ( 'NONE', #151 ) ;
#139 = APPROVAL_DATE_TIME ( #95, #87 ) ;
#140 = EDGE_LOOP ( 'NONE', ( #27, #174, #30, #94 ) ) ;
#141 = LOCAL_TIME ( 12, 13, 10.00000000000000000, #162 ) ;
#142 = CC_DESIGN_PERSON_AND_ORGANIZATION_ASSIGNMENT ( #13, #41, ( #133 ) ) ;
#143 = DIRECTION ( 'NONE',  ( 0.000000000000000000, 0.000000000000000000, 1.000000000000000000 ) ) ;
#144 = PRODUCT_DEFINITION_SHAPE ( 'NONE', 'NONE',  #133 ) ;
#145 = CARTESIAN_POINT ( 'NONE',  ( -2.743208830090071026E-15, 0.000000000000000000, 0.000000000000000000 ) ) ;
#146 = AXIS2_PLACEMENT_3D ( 'NONE', #116, #165, #128 ) ;
#147 = DATE_AND_TIME ( #11, #86 ) ;
#148 = FACE_OUTER_BOUND ( 'NONE', #140, .T. ) ;
#149 = APPROVAL_STATUS ( 'not_yet_approved' ) ;
#150 = ORIENTED_EDGE ( 'NONE', *, *, #127, .T. ) ;
#151 = CARTESIAN_POINT ( 'NONE',  ( -2.743208830090071026E-15, 3.110602869834276865E-15, -25.39999999999999858 ) ) ;
#152 = DIRECTION ( 'NONE',  ( -1.000000000000000000, 0.000000000000000000, -0.000000000000000000 ) ) ;
#153 = CALENDAR_DATE ( 2020, 22, 12 ) ;
#154 = EDGE_LOOP ( 'NONE', ( #59, #12, #150, #40 ) ) ;
#155 = DATE_TIME_ROLE ( 'classification_date' ) ;
#156 = PERSON_AND_ORGANIZATION_ROLE ( 'classification_officer' ) ;
#157 = CARTESIAN_POINT ( 'NONE',  ( -2.743208830090071026E-15, 0.000000000000000000, 25.39999999999999858 ) ) ;
#158 = DIRECTION ( 'NONE',  ( -1.000000000000000000, -0.000000000000000000, -0.000000000000000000 ) ) ;
#159 = PRODUCT_RELATED_PRODUCT_CATEGORY ( 'detail', '', ( #164 ) ) ;
#160 = APPLICATION_CONTEXT ( 'configuration controlled 3d designs of mechanical parts and assemblies' ) ;
#161 = EDGE_CURVE ( 'NONE', #138, #60, #58, .T. ) ;
#162 = COORDINATED_UNIVERSAL_TIME_OFFSET ( 8, 0, .AHEAD. ) ;
#163 = DATE_AND_TIME ( #47, #141 ) ;
#164 = PRODUCT ( 'BK7-LNPBSP-50.8-780', 'BK7-LNPBSP-50.8-780', '', ( #88 ) ) ;
#165 = DIRECTION ( 'NONE',  ( 1.000000000000000000, 0.000000000000000000, 0.000000000000000000 ) ) ;
#166 = AXIS2_PLACEMENT_3D ( 'NONE', #84, #121, #111 ) ;
#167 = PERSON_AND_ORGANIZATION_ROLE ( 'design_owner' ) ;
#168 = DIRECTION ( 'NONE',  ( 0.000000000000000000, 0.000000000000000000, 1.000000000000000000 ) ) ;
#169 = CALENDAR_DATE ( 2020, 22, 12 ) ;
#170 = CC_DESIGN_APPROVAL ( #136, ( #23 ) ) ;
#171 = CARTESIAN_POINT ( 'NONE',  ( 2.999999999999996891, 3.110602869834276865E-15, -25.39999999999999858 ) ) ;
#172 = ORIENTED_EDGE ( 'NONE', *, *, #98, .T. ) ;
#173 = CC_DESIGN_PERSON_AND_ORGANIZATION_ASSIGNMENT ( #25, #10, ( #23 ) ) ;
#174 = ORIENTED_EDGE ( 'NONE', *, *, #67, .T. ) ;
#175 = ADVANCED_FACE ( 'NONE', ( #89 ), #63, .F. ) ;
ENDSEC;
END-ISO-10303-21;
